0
SECTION
2
HEADER
9
$INSUNITS
70
4
9
$ACADVER
1
AC1014
9
$HANDSEED
5
FFFF
0
ENDSEC
0
SECTION
2
TABLES
0
TABLE
2
VPORT
5
8
100
AcDbSymbolTable
0
ENDTAB
0
TABLE
2
LTYPE
5
5
100
AcDbSymbolTable
0
LTYPE
5
14
100
AcDbSymbolTableRecord
100
AcDbLinetypeTableRecord
2
BYBLOCK
70
0
0
LTYPE
5
15
100
AcDbSymbolTableRecord
100
AcDbLinetypeTableRecord
2
BYLAYER
70
0
0
ENDTAB
0
TABLE
2
LAYER
5
2
100
AcDbSymbolTable
70
2
0
LAYER
5
50
100
AcDbSymbolTableRecord
100
AcDbLayerTableRecord
2
0
70
0
6
CONTINUOUS
0
ENDTAB
0
TABLE
2
STYLE
5
3
100
AcDbSymbolTable
70
1
0
STYLE
5
11
100
AcDbSymbolTableRecord
100
AcDbTextStyleTableRecord
2
STANDARD
70
0
0
ENDTAB
0
TABLE
2
VIEW
5
6
100
AcDbSymbolTable
70
0
0
ENDTAB
0
TABLE
2
UCS
5
7
100
AcDbSymbolTable
70
0
0
ENDTAB
0
TABLE
2
APPID
5
9
100
AcDbSymbolTable
70
2
0
APPID
5
12
100
AcDbSymbolTableRecord
100
AcDbRegAppTableRecord
2
ACAD
70
0
0
ENDTAB
0
TABLE
2
DIMSTYLE
5
A
100
AcDbSymbolTable
70
1
0
ENDTAB
0
TABLE
2
BLOCK_RECORD
5
1
100
AcDbSymbolTable
70
1
0
BLOCK_RECORD
5
1F
100
AcDbSymbolTableRecord
100
AcDbBlockTableRecord
2
*MODEL_SPACE
0
BLOCK_RECORD
5
1B
100
AcDbSymbolTableRecord
100
AcDbBlockTableRecord
2
*PAPER_SPACE
0
ENDTAB
0
ENDSEC
0
SECTION
2
BLOCKS
0
BLOCK
5
20
100
AcDbEntity
100
AcDbBlockBegin
2
*MODEL_SPACE
0
ENDBLK
5
21
100
AcDbEntity
100
AcDbBlockEnd
0
BLOCK
5
1C
100
AcDbEntity
100
AcDbBlockBegin
2
*PAPER_SPACE
0
ENDBLK
5
1D
100
AcDbEntity
100
AcDbBlockEnd
0
ENDSEC
0
SECTION
2
ENTITIES
0
CIRCLE
5
100
100
AcDbEntity
8
0
100
AcDbCircle
10
-30.325000000000006
20
-10.450000000074875
30
0
40
1.0999999999999985
210
0
220
-0
230
1
0
LWPOLYLINE
5
101
100
AcDbEntity
8
0
100
AcDbPolyline
90
56
70
1
43
0.0
10
-27.325000000000003
20
-19.50000000000777
42
0.41421356237309048
10
-26.325000000000003
20
-20.50000000000777
10
0.99999999999998312
20
-20.50000000000777
42
-0.99999999999999989
10
2.9999999999999849
20
-20.50000000000777
10
3.5399999999999832
20
-20.50000000000777
42
-0.99999999999999989
10
5.5399999999999849
20
-20.50000000000777
10
6.0799999999999832
20
-20.50000000000777
42
-0.99999999999999989
10
8.0799999999999841
20
-20.50000000000777
10
8.6199999999999815
20
-20.50000000000777
42
-0.99999999999999989
10
10.619999999999983
20
-20.50000000000777
10
11.159999999999981
20
-20.50000000000777
42
-0.99999999999999989
10
13.159999999999982
20
-20.50000000000777
10
13.699999999999982
20
-20.50000000000777
42
-0.99999999999999989
10
15.699999999999983
20
-20.50000000000777
10
16.239999999999981
20
-20.50000000000777
42
-0.99999999999999989
10
18.239999999999984
20
-20.50000000000777
10
18.77999999999998
20
-20.50000000000777
42
-0.99999999999999989
10
20.77999999999998
20
-20.50000000000777
10
21.319999999999983
20
-20.50000000000777
42
-0.99999999999999989
10
23.319999999999986
20
-20.50000000000777
10
23.859999999999985
20
-20.50000000000778
42
-0.99999999999999989
10
25.859999999999985
20
-20.50000000000777
10
26.399999999999984
20
-20.50000000000777
42
-0.99999999999999989
10
28.399999999999984
20
-20.50000000000777
10
44.634999999999998
20
-20.50000000000777
42
0.41421356237309243
10
45.634999999999991
20
-19.50000000000777
10
45.634999999999991
20
-1.4000000001419766
42
0.41421356237310375
10
44.634999999999991
20
-0.40000000014197706
10
28.399999999999984
20
-0.40000000014198117
42
-0.99999999999999989
10
26.399999999999984
20
-0.40000000014197673
10
25.859999999999985
20
-0.4000000001419724
42
-0.99999999999999989
10
23.859999999999985
20
-0.40000000014197673
10
23.319999999999986
20
-0.40000000014198117
42
-0.99999999999999989
10
21.319999999999983
20
-0.40000000014197673
10
20.77999999999998
20
-0.40000000014197906
42
-0.99999999999999989
10
18.77999999999998
20
-0.40000000014197673
10
18.239999999999984
20
-0.40000000014197684
42
-0.99999999999999989
10
16.239999999999981
20
-0.40000000014197673
10
15.699999999999983
20
-0.40000000014197684
42
-0.99999999999999989
10
13.699999999999982
20
-0.40000000014197673
10
13.159999999999982
20
-0.40000000014197684
42
-0.99999999999999989
10
11.159999999999981
20
-0.40000000014197673
10
10.619999999999983
20
-0.40000000014197684
42
-0.99999999999999989
10
8.6199999999999815
20
-0.40000000014197673
10
8.0799999999999841
20
-0.40000000014197684
42
-0.99999999999999989
10
6.0799999999999832
20
-0.40000000014197673
10
5.5399999999999849
20
-0.40000000014197684
42
-0.99999999999999989
10
3.5399999999999832
20
-0.40000000014197673
10
2.9999999999999849
20
-0.40000000014197684
42
-0.99999999999999989
10
0.99999999999998312
20
-0.40000000014197673
10
-26.325000000000003
20
-0.40000000014197679
42
0.41421356237309304
10
-27.324999999999999
20
-1.4000000001419768
10
-27.324999999999999
20
-7.9500000000748745
10
-30.325000000000006
20
-7.9500000000748736
42
0.99999999999999989
10
-30.325000000000006
20
-12.950000000074876
10
-27.324999999999999
20
-12.950000000070325
0
LWPOLYLINE
5
102
100
AcDbEntity
8
0
100
AcDbPolyline
90
4
70
1
43
0.0
10
38.682499999999997
20
-7.4245000000000019
10
38.047499999999999
20
-7.4245000000000019
10
38.047499999999999
20
-5.6084000000000023
10
38.682499999999997
20
-5.6084000000000023
0
LWPOLYLINE
5
103
100
AcDbEntity
8
0
100
AcDbPolyline
90
4
70
1
43
0.0
10
33.602499999999999
20
-7.4245000000000019
10
32.967500000000001
20
-7.4245000000000019
10
32.967500000000001
20
-5.6084000000000023
10
33.602499999999999
20
-5.6084000000000023
0
LWPOLYLINE
5
104
100
AcDbEntity
8
0
100
AcDbPolyline
90
4
70
1
43
0.0
10
28.522499999999997
20
-7.4245000000000019
10
27.887499999999999
20
-7.4245000000000019
10
27.887499999999996
20
-5.6084000000000023
10
28.522499999999994
20
-5.6084000000000023
0
LWPOLYLINE
5
105
100
AcDbEntity
8
0
100
AcDbPolyline
90
4
70
1
43
0.0
10
22.807499999999997
20
-5.6084000000000023
10
23.442499999999995
20
-5.6084000000000023
10
23.442499999999995
20
-7.4245000000000028
10
22.807499999999994
20
-7.4245000000000019
0
LWPOLYLINE
5
106
100
AcDbEntity
8
0
100
AcDbPolyline
90
60
70
1
43
0.0
10
36.987646968374158
20
-7.2340000000000018
10
37.202353031625847
20
-7.2340000000000018
10
37.348999999999997
20
-6.9800000000000022
10
39.634999999999998
20
-6.9800000000000022
10
39.634999999999998
20
-9.5200000000000014
10
37.348999999999997
20
-9.5200000000000014
10
37.202353031625833
20
-9.2660000000000018
10
36.987646968374158
20
-9.2660000000000018
10
36.841000000000001
20
-9.5200000000000014
10
34.808999999999997
20
-9.5200000000000014
10
34.662353031625841
20
-9.2660000000000018
10
34.447646968374158
20
-9.2660000000000018
10
34.300999999999995
20
-9.5200000000000014
10
32.268999999999998
20
-9.5200000000000014
10
32.122353031625835
20
-9.2660000000000018
10
31.907646968374163
20
-9.2660000000000018
10
31.760999999999999
20
-9.5200000000000014
10
29.728999999999999
20
-9.5200000000000014
10
29.582353031625832
20
-9.2660000000000018
10
29.367646968374164
20
-9.2660000000000018
10
29.221
20
-9.5200000000000014
10
27.188999999999997
20
-9.5200000000000014
10
27.042353031625833
20
-9.2660000000000018
10
26.827646968374161
20
-9.2660000000000018
10
26.680999999999997
20
-9.5200000000000014
10
24.649000000000001
20
-9.5200000000000014
10
24.502353031625837
20
-9.2660000000000018
10
24.287646968374158
20
-9.2660000000000018
10
24.140999999999995
20
-9.5200000000000014
10
22.109000000000002
20
-9.5200000000000014
10
21.962353031625842
20
-9.2660000000000018
10
21.747646968374159
20
-9.2660000000000018
10
21.600999999999999
20
-9.5200000000000014
10
19.314999999999998
20
-9.5200000000000014
10
19.314999999999998
20
-6.9800000000000022
10
21.600999999999999
20
-6.9800000000000022
10
21.747646968374159
20
-7.2340000000000018
10
21.962353031625845
20
-7.2340000000000018
10
22.109000000000002
20
-6.9800000000000022
10
24.140999999999998
20
-6.9800000000000022
10
24.287646968374155
20
-7.2340000000000018
10
24.502353031625837
20
-7.2340000000000018
10
24.649000000000001
20
-6.9800000000000022
10
26.680999999999997
20
-6.9800000000000022
10
26.827646968374161
20
-7.2340000000000018
10
27.042353031625836
20
-7.2340000000000018
10
27.189000000000007
20
-6.9800000000000022
10
29.221
20
-6.9800000000000022
10
29.367646968374167
20
-7.2340000000000018
10
29.582353031625832
20
-7.2340000000000018
10
29.728999999999996
20
-6.9800000000000022
10
31.760999999999999
20
-6.9800000000000022
10
31.907646968374159
20
-7.2340000000000018
10
32.122353031625842
20
-7.2340000000000018
10
32.268999999999998
20
-6.9800000000000022
10
34.300999999999995
20
-6.9800000000000022
10
34.447646968374158
20
-7.2340000000000018
10
34.662353031625834
20
-7.2340000000000018
10
34.808999999999997
20
-6.9800000000000022
10
36.841000000000001
20
-6.9800000000000022
0
LWPOLYLINE
5
107
100
AcDbEntity
8
0
100
AcDbPolyline
90
4
70
1
43
0.0
10
36.142499999999998
20
-10.8916
10
35.5075
20
-10.8916
10
35.5075
20
-9.0755000000000017
10
36.142499999999998
20
-9.0755000000000017
0
LWPOLYLINE
5
108
100
AcDbEntity
8
0
100
AcDbPolyline
90
4
70
1
43
0.0
10
31.0625
20
-10.8916
10
30.427499999999995
20
-10.8916
10
30.427499999999995
20
-9.0755000000000017
10
31.0625
20
-9.0755000000000017
0
LWPOLYLINE
5
109
100
AcDbEntity
8
0
100
AcDbPolyline
90
4
70
1
43
0.0
10
25.347499999999997
20
-9.0755000000000017
10
25.982499999999998
20
-9.0755000000000017
10
25.982499999999998
20
-10.8916
10
25.347499999999997
20
-10.8916
0
LWPOLYLINE
5
110
100
AcDbEntity
8
0
100
AcDbPolyline
90
4
70
1
43
0.0
10
20.267499999999998
20
-9.0755000000000017
10
20.902499999999996
20
-9.0755000000000017
10
20.902499999999996
20
-10.8916
10
20.267499999999998
20
-10.8916
0
LWPOLYLINE
5
111
100
AcDbEntity
8
0
100
AcDbPolyline
90
4
70
1
43
0.0
10
3.1225000000000014
20
-7.4245000000000019
10
2.4875000000000003
20
-7.4245000000000019
10
2.4875000000000003
20
-5.6084000000000023
10
3.1225000000000014
20
-5.6084000000000023
0
LWPOLYLINE
5
112
100
AcDbEntity
8
0
100
AcDbPolyline
90
4
70
1
43
0.0
10
-1.9574999999999998
20
-7.4245000000000019
10
-2.5925000000000011
20
-7.4245000000000019
10
-2.5925000000000011
20
-5.6084000000000023
10
-1.9574999999999998
20
-5.6084000000000023
0
LWPOLYLINE
5
113
100
AcDbEntity
8
0
100
AcDbPolyline
90
4
70
1
43
0.0
10
-7.0374999999999996
20
-7.4245000000000019
10
-7.6724999999999977
20
-7.4245000000000019
10
-7.6724999999999977
20
-5.6084000000000023
10
-7.0374999999999996
20
-5.6084000000000023
0
LWPOLYLINE
5
114
100
AcDbEntity
8
0
100
AcDbPolyline
90
4
70
1
43
0.0
10
-12.117500000000001
20
-7.4245000000000019
10
-12.7525
20
-7.4245000000000019
10
-12.7525
20
-5.6084000000000023
10
-12.117500000000001
20
-5.6084000000000023
0
LWPOLYLINE
5
115
100
AcDbEntity
8
0
100
AcDbPolyline
90
4
70
1
43
0.0
10
-17.8325
20
-5.6084000000000023
10
-17.197500000000002
20
-5.6084000000000023
10
-17.197500000000002
20
-7.4245000000000028
10
-17.8325
20
-7.4245000000000019
0
LWPOLYLINE
5
116
100
AcDbEntity
8
0
100
AcDbPolyline
90
76
70
1
43
0.0
10
1.4276469683741566
20
-7.2340000000000018
10
1.6423530316258406
20
-7.2340000000000018
10
1.7889999999999984
20
-6.9800000000000022
10
4.0749999999999993
20
-6.9800000000000022
10
4.0749999999999993
20
-9.5200000000000014
10
1.7889999999999984
20
-9.5200000000000014
10
1.6423530316258406
20
-9.2660000000000018
10
1.4276469683741566
20
-9.2660000000000018
10
1.2809999999999999
20
-9.5200000000000014
10
-0.75099999999999945
20
-9.5200000000000014
10
-0.89764696837415725
20
-9.2660000000000018
10
-1.1123530316258412
20
-9.2660000000000018
10
-1.2590000000000001
20
-9.5200000000000014
10
-3.2909999999999995
20
-9.5200000000000014
10
-3.4376469683741573
20
-9.2660000000000018
10
-3.6523530316258408
20
-9.2660000000000018
10
-3.7989999999999995
20
-9.5200000000000014
10
-5.8309999999999995
20
-9.5200000000000014
10
-5.9776469683741578
20
-9.2660000000000018
10
-6.1923530316258333
20
-9.2660000000000018
10
-6.3389999999999986
20
-9.5200000000000014
10
-8.3709999999999987
20
-9.5200000000000014
10
-8.5176469683741622
20
-9.2660000000000018
10
-8.7323530316258342
20
-9.2660000000000018
10
-8.8789999999999996
20
-9.5200000000000014
10
-10.911
20
-9.5200000000000014
10
-11.057646968374165
20
-9.2660000000000018
10
-11.27235303162584
20
-9.2660000000000018
10
-11.418999999999999
20
-9.5200000000000014
10
-13.451000000000001
20
-9.5200000000000014
10
-13.597646968374157
20
-9.2660000000000018
10
-13.812353031625843
20
-9.2660000000000018
10
-13.959
20
-9.5200000000000014
10
-15.991
20
-9.5200000000000014
10
-16.13764696837416
20
-9.2660000000000018
10
-16.352353031625842
20
-9.2660000000000018
10
-16.498999999999999
20
-9.5200000000000014
10
-18.530999999999999
20
-9.5200000000000014
10
-18.677646968374155
20
-9.2660000000000018
10
-18.892353031625841
20
-9.2660000000000018
10
-19.038999999999998
20
-9.5200000000000014
10
-21.325000000000003
20
-9.5200000000000014
10
-21.325000000000003
20
-6.9800000000000022
10
-19.039000000000001
20
-6.9800000000000022
10
-18.892353031625841
20
-7.2340000000000018
10
-18.677646968374159
20
-7.2340000000000018
10
-18.530999999999999
20
-6.9800000000000022
10
-16.498999999999999
20
-6.9800000000000022
10
-16.352353031625842
20
-7.2340000000000018
10
-16.137646968374156
20
-7.2340000000000018
10
-15.991
20
-6.9800000000000022
10
-13.959000000000001
20
-6.9800000000000022
10
-13.812353031625841
20
-7.2340000000000018
10
-13.597646968374157
20
-7.2340000000000018
10
-13.451000000000002
20
-6.9800000000000022
10
-11.418999999999999
20
-6.9800000000000022
10
-11.27235303162584
20
-7.2340000000000018
10
-11.057646968374165
20
-7.2340000000000018
10
-10.910999999999992
20
-6.9800000000000022
10
-8.8789999999999996
20
-6.9800000000000022
10
-8.7323530316258307
20
-7.2340000000000018
10
-8.5176469683741658
20
-7.2340000000000018
10
-8.3710000000000004
20
-6.9800000000000022
10
-6.3389999999999977
20
-6.9800000000000022
10
-6.1923530316258377
20
-7.2340000000000018
10
-5.9776469683741587
20
-7.2340000000000018
10
-5.8309999999999995
20
-6.9800000000000022
10
-3.798999999999999
20
-6.9800000000000022
10
-3.6523530316258412
20
-7.2340000000000018
10
-3.4376469683741577
20
-7.2340000000000018
10
-3.2909999999999995
20
-6.9800000000000022
10
-1.2590000000000001
20
-6.9800000000000022
10
-1.1123530316258412
20
-7.2340000000000018
10
-0.89764696837415725
20
-7.2340000000000018
10
-0.75099999999999945
20
-6.9800000000000022
10
1.281000000000001
20
-6.9800000000000022
0
LWPOLYLINE
5
117
100
AcDbEntity
8
0
100
AcDbPolyline
90
4
70
1
43
0.0
10
-15.292500000000002
20
-9.0755000000000017
10
-14.657500000000001
20
-9.0755000000000017
10
-14.657499999999999
20
-10.8916
10
-15.2925
20
-10.8916
0
LWPOLYLINE
5
118
100
AcDbEntity
8
0
100
AcDbPolyline
90
4
70
1
43
0.0
10
-20.372500000000002
20
-9.0755000000000017
10
-19.737500000000001
20
-9.0755000000000017
10
-19.737500000000001
20
-10.8916
10
-20.372500000000002
20
-10.8916
0
LWPOLYLINE
5
119
100
AcDbEntity
8
0
100
AcDbPolyline
90
4
70
1
43
0.0
10
-9.5775000000000006
20
-10.8916
10
-10.212499999999999
20
-10.8916
10
-10.212499999999999
20
-9.0755000000000017
10
-9.5775000000000006
20
-9.0755000000000017
0
LWPOLYLINE
5
120
100
AcDbEntity
8
0
100
AcDbPolyline
90
4
70
1
43
0.0
10
-4.4974999999999996
20
-10.8916
10
-5.1325000000000003
20
-10.8916
10
-5.1325000000000003
20
-9.0755000000000017
10
-4.4975000000000005
20
-9.0755000000000017
0
LWPOLYLINE
5
121
100
AcDbEntity
8
0
100
AcDbPolyline
90
4
70
1
43
0.0
10
0.58249999999999913
20
-10.8916
10
-0.052499999999999769
20
-10.8916
10
-0.052499999999999769
20
-9.0755000000000017
10
0.58249999999999913
20
-9.0755000000000017
0
LWPOLYLINE
5
122
100
AcDbEntity
8
0
100
AcDbPolyline
90
4
70
1
43
0.0
10
13.579999999999991
20
-12.164500000074874
10
13.579999999999991
20
-8.7355000000748735
10
7.2299999999999915
20
-8.7355000000748735
10
7.2299999999999933
20
-12.164500000074874
0
LWPOLYLINE
5
123
100
AcDbEntity
8
0
100
AcDbPolyline
90
4
70
1
43
0.0
10
12.741799999999994
20
-12.126400000074874
10
12.741799999999994
20
-13.371000000074872
10
13.148199999999994
20
-13.371000000074872
10
13.148199999999992
20
-12.126400000074874
0
LWPOLYLINE
5
124
100
AcDbEntity
8
0
100
AcDbPolyline
90
4
70
1
43
0.0
10
11.471799999999995
20
-12.126400000074874
10
11.471799999999995
20
-13.371000000074872
10
11.878199999999994
20
-13.371000000074872
10
11.878199999999994
20
-12.126400000074874
0
LWPOLYLINE
5
125
100
AcDbEntity
8
0
100
AcDbPolyline
90
4
70
1
43
0.0
10
10.201799999999995
20
-12.126400000074874
10
10.201799999999995
20
-13.371000000074872
10
10.608199999999995
20
-13.371000000074872
10
10.608199999999995
20
-12.126400000074874
0
LWPOLYLINE
5
126
100
AcDbEntity
8
0
100
AcDbPolyline
90
4
70
1
43
0.0
10
8.9317999999999937
20
-12.126400000074874
10
8.9317999999999937
20
-13.371000000074872
10
9.3381999999999934
20
-13.371000000074872
10
9.3381999999999934
20
-12.126400000074874
0
LWPOLYLINE
5
127
100
AcDbEntity
8
0
100
AcDbPolyline
90
4
70
1
43
0.0
10
8.0681999999999938
20
-13.371000000074872
10
8.0681999999999938
20
-12.126400000074874
10
7.6617999999999933
20
-12.126400000074874
10
7.6617999999999933
20
-13.371000000074872
0
LWPOLYLINE
5
128
100
AcDbEntity
8
0
100
AcDbPolyline
90
4
70
1
43
0.0
10
12.741799999999994
20
-7.5290000000748725
10
12.741799999999994
20
-8.7736000000748717
10
13.148199999999994
20
-8.7736000000748717
10
13.148199999999992
20
-7.5290000000748725
0
LWPOLYLINE
5
129
100
AcDbEntity
8
0
100
AcDbPolyline
90
4
70
1
43
0.0
10
11.471799999999995
20
-7.5290000000748725
10
11.471799999999995
20
-8.7736000000748717
10
11.878199999999994
20
-8.7736000000748717
10
11.878199999999994
20
-7.5290000000748725
0
LWPOLYLINE
5
130
100
AcDbEntity
8
0
100
AcDbPolyline
90
4
70
1
43
0.0
10
10.201799999999995
20
-7.5290000000748725
10
10.201799999999995
20
-8.7736000000748717
10
10.608199999999995
20
-8.7736000000748717
10
10.608199999999995
20
-7.5290000000748725
0
LWPOLYLINE
5
131
100
AcDbEntity
8
0
100
AcDbPolyline
90
4
70
1
43
0.0
10
8.9317999999999937
20
-7.5290000000748725
10
8.9317999999999937
20
-8.7736000000748717
10
9.3381999999999934
20
-8.7736000000748717
10
9.3381999999999934
20
-7.5290000000748725
0
LWPOLYLINE
5
132
100
AcDbEntity
8
0
100
AcDbPolyline
90
4
70
1
43
0.0
10
8.0681999999999938
20
-8.7736000000748717
10
8.0681999999999938
20
-7.5290000000748725
10
7.6617999999999933
20
-7.5290000000748725
10
7.6617999999999933
20
-8.7736000000748717
0
LWPOLYLINE
5
133
100
AcDbEntity
8
0
100
AcDbPolyline
90
6
70
1
43
0.0
10
4.7749999999999968
20
-5.9000000001419819
10
4.7749999999999968
20
-5.7550000001419823
10
4.7749999999999968
20
-5.1950000001419818
10
4.7749999999999968
20
-3.6050000001419811
10
4.7749999999999968
20
-3.0450000001419819
10
4.7749999999999977
20
-2.9000000001419819
0
LWPOLYLINE
5
134
100
AcDbEntity
8
0
100
AcDbPolyline
90
3
70
1
43
0.0
10
4.7249999999999961
20
-2.8133974597635367
42
0.13165249758739164
10
4.674999999999998
20
-2.8000000001419822
42
-0.41421356237312429
10
4.7749999999999968
20
-2.9000000001419917
42
0.267949192431154
0
LWPOLYLINE
5
135
100
AcDbEntity
8
0
100
AcDbPolyline
90
4
70
1
43
0.0
10
0.6749999999999956
20
-2.8000000001419814
10
1.3149999999999964
20
-2.8000000001419814
10
4.0349999999999966
20
-2.8000000001419818
10
4.6749999999999972
20
-2.8000000001419818
0
LWPOLYLINE
5
136
100
AcDbEntity
8
0
100
AcDbPolyline
90
3
70
1
43
0.0
10
0.6749999999999956
20
-2.8000000001419818
42
0.13165249758740535
10
0.62499999999999667
20
-2.8133974597635367
42
0.2679491924311444
10
0.57500000000000207
20
-2.900000000141981
42
-0.41421356237312962
0
LWPOLYLINE
5
137
100
AcDbEntity
8
0
100
AcDbPolyline
90
6
70
1
43
0.0
10
0.57499999999999607
20
-5.1950000001419818
10
0.57499999999999574
20
-5.7550000001419823
10
0.57499999999999529
20
-5.9000000001419819
10
0.57499999999999618
20
-2.900000000141981
10
0.5749999999999964
20
-3.0450000001419815
10
0.57499999999999596
20
-3.6050000001419806
0
LWPOLYLINE
5
138
100
AcDbEntity
8
0
100
AcDbPolyline
90
4
70
1
43
0.0
10
4.6749999999999972
20
-6.0000000001419815
10
4.0349999999999966
20
-6.0000000001419815
10
1.3149999999999962
20
-6.0000000001419815
10
0.67499999999999505
20
-6.0000000001419815
0
LWPOLYLINE
5
139
100
AcDbEntity
8
0
100
AcDbPolyline
90
3
70
1
43
0.0
10
0.62499999999999611
20
-5.9866025405204262
42
0.13165249758739303
10
0.67499999999999505
20
-6.0000000001419806
42
-0.41421356237313078
10
0.57499999999999574
20
-5.9000000001419695
42
0.2679491924311585
0
LWPOLYLINE
5
140
100
AcDbEntity
8
0
100
AcDbPolyline
90
6
70
1
43
0.0
10
0.57500000000000051
20
-17.295000000007768
10
0.57500000000000018
20
-17.85500000000777
10
0.57499999999999996
20
-18.00000000000777
10
0.57500000000000073
20
-15.00000000000777
10
0.57500000000000051
20
-15.145000000007771
10
0.57500000000000018
20
-15.705000000007772
0
LWPOLYLINE
5
141
100
AcDbEntity
8
0
100
AcDbPolyline
90
3
70
1
43
0.0
10
0.62500000000000089
20
-18.086602540386213
42
0.13165249758739303
10
0.67499999999999982
20
-18.100000000007771
42
-0.41421356237312756
10
0.57500000000000051
20
-18.000000000007759
42
0.26794919243115545
0
LWPOLYLINE
5
142
100
AcDbEntity
8
0
100
AcDbPolyline
90
4
70
1
43
0.0
10
4.6750000000000016
20
-18.100000000007771
10
4.035000000000001
20
-18.100000000007771
10
1.3150000000000006
20
-18.100000000007771
10
0.67499999999999982
20
-18.100000000007771
0
LWPOLYLINE
5
143
100
AcDbEntity
8
0
100
AcDbPolyline
90
3
70
1
43
0.0
10
4.6750000000000016
20
-18.100000000007771
42
0.1316524975874048
10
4.7250000000000005
20
-18.086602540386213
42
0.26794919243114151
10
4.7749999999999941
20
-18.00000000000777
42
-0.4142135623731259
0
LWPOLYLINE
5
144
100
AcDbEntity
8
0
100
AcDbPolyline
90
6
70
1
43
0.0
10
4.7750000000000012
20
-18.00000000000777
10
4.7750000000000012
20
-17.85500000000777
10
4.7750000000000012
20
-17.295000000007768
10
4.7750000000000012
20
-15.705000000007772
10
4.7750000000000012
20
-15.145000000007771
10
4.7750000000000012
20
-15.000000000007772
0
LWPOLYLINE
5
145
100
AcDbEntity
8
0
100
AcDbPolyline
90
3
70
1
43
0.0
10
4.7250000000000005
20
-14.913397459629326
42
0.13165249758739303
10
4.6750000000000016
20
-14.900000000007774
42
-0.41421356237312756
10
4.7750000000000004
20
-15.000000000007782
42
0.26794919243115545
0
LWPOLYLINE
5
146
100
AcDbEntity
8
0
100
AcDbPolyline
90
4
70
1
43
0.0
10
0.67499999999999982
20
-14.900000000007772
10
1.3150000000000006
20
-14.900000000007772
10
4.035000000000001
20
-14.900000000007768
10
4.6750000000000016
20
-14.900000000007768
0
LWPOLYLINE
5
147
100
AcDbEntity
8
0
100
AcDbPolyline
90
3
70
1
43
0.0
10
0.67499999999999982
20
-14.900000000007772
42
0.1316524975874048
10
0.62500000000000089
20
-14.913397459629326
42
0.26794919243114151
10
0.57500000000000684
20
-15.000000000007772
42
-0.4142135623731259
0
LWPOLYLINE
5
148
100
AcDbEntity
8
0
100
AcDbPolyline
90
12
70
1
43
0.0
10
3.6549999999999971
20
-11.550000000074874
10
3.9049999999999976
20
-11.550000000074874
10
3.904999999999998
20
-9.3500000000748749
10
3.6549999999999976
20
-9.3500000000748749
42
-0.99999999999999989
10
3.1549999999999971
20
-9.3500000000748713
10
2.654999999999998
20
-9.3500000000748749
42
-0.99999999999999989
10
2.154999999999998
20
-9.3500000000748713
10
1.9049999999999978
20
-9.3500000000748731
10
1.9049999999999971
20
-11.550000000074874
10
2.1549999999999967
20
-11.550000000074874
42
-0.99999999999999989
10
2.6549999999999976
20
-11.550000000074874
10
3.1549999999999976
20
-11.550000000074874
42
-0.99999999999999989
0
LWPOLYLINE
5
149
100
AcDbEntity
8
0
100
AcDbPolyline
90
156
70
1
43
0.0
10
-2.1950000000000691
20
-15.715000000074848
10
-1.7450000000000676
20
-15.715000000074843
10
-1.7450000000000676
20
-15.345000000074847
10
-2.1950000000000691
20
-15.345000000074849
10
-2.1950000000000709
20
-14.445000000074849
10
-1.7450000000000654
20
-14.445000000074845
10
-1.7450000000000676
20
-14.075000000074848
10
-2.1950000000000669
20
-14.075000000074851
10
-2.1950000000000709
20
-13.175000000074848
10
-1.7450000000000643
20
-13.175000000074848
10
-1.7450000000000665
20
-12.805000000074848
10
-2.195000000000066
20
-12.805000000074852
10
-2.19500000000007
20
-11.90500000007485
10
-1.7450000000000621
20
-11.905000000074848
10
-1.7450000000000665
20
-11.53500000007485
10
-2.195000000000066
20
-11.535000000074852
10
-2.19500000000007
20
-10.635000000074852
10
-1.7450000000000621
20
-10.63500000007485
10
-1.7450000000000643
20
-10.265000000074853
10
-2.195000000000066
20
-10.265000000074856
10
-2.1950000000000678
20
-9.3650000000748541
10
-1.7450000000000621
20
-9.3650000000748506
10
-1.7450000000000665
20
-8.9950000000748531
10
-2.1950000000000633
20
-8.9950000000748567
10
-2.19500000000007
20
-8.0950000000748563
10
-1.7450000000000665
20
-8.0950000000748545
10
-1.7450000000000687
20
-7.7250000000748553
10
-2.1950000000000678
20
-7.7250000000748571
10
-2.19500000000007
20
-6.8250000000748567
10
-1.7450000000000632
20
-6.825000000074855
10
-1.7450000000000654
20
-6.4550000000748575
10
-2.1950000000000647
20
-6.4550000000748611
10
-2.1950000000000687
20
-5.5550000000748589
10
-1.7450000000000632
20
-5.5550000000748572
10
-1.7450000000000654
20
-5.1850000000748588
10
-2.1950000000000647
20
-5.1850000000748615
10
-2.1950000000000687
20
-4.2850000000748611
10
-1.7450000000000609
20
-4.2850000000748603
10
-1.7450000000000783
20
-1.4500000000748732
10
-2.7950000000000563
20
-1.4500000000748758
10
-2.7950000000000541
20
-1.9000000000748667
10
-3.6950000000000527
20
-1.9000000000748696
10
-3.6950000000000571
20
-1.4500000000748674
10
-4.0650000000000563
20
-1.450000000074867
10
-4.0650000000000546
20
-1.9000000000748658
10
-4.9650000000000558
20
-1.9000000000748696
10
-4.9650000000000594
20
-1.4500000000748687
10
-5.3350000000000586
20
-1.4500000000748681
10
-5.3350000000000541
20
-1.9000000000748658
10
-6.2350000000000545
20
-1.9000000000748685
10
-6.2350000000000572
20
-1.4500000000748674
10
-6.6050000000000564
20
-1.450000000074867
10
-6.6050000000000537
20
-1.9000000000748658
10
-7.505000000000055
20
-1.9000000000748696
10
-7.5050000000000585
20
-1.4500000000748652
10
-7.8750000000000551
20
-1.4500000000748647
10
-7.8750000000000542
20
-1.9000000000748658
10
-8.7750000000000554
20
-1.9000000000748685
10
-8.775000000000059
20
-1.4500000000748696
10
-9.1450000000000564
20
-1.450000000074867
10
-9.1450000000000529
20
-1.9000000000748645
10
-10.045000000000055
20
-1.9000000000748696
10
-10.045000000000057
20
-1.4500000000748687
10
-10.415000000000054
20
-1.4500000000748681
10
-10.415000000000052
20
-1.9000000000748667
10
-11.315000000000053
20
-1.9000000000748696
10
-11.315000000000058
20
-1.4500000000748674
10
-11.685000000000054
20
-1.4500000000748658
10
-11.685000000000052
20
-1.9000000000748645
10
-12.585000000000054
20
-1.9000000000748696
10
-12.585000000000059
20
-1.4500000000748687
10
-12.955000000000057
20
-1.450000000074867
10
-12.955000000000052
20
-1.9000000000748645
10
-13.855000000000055
20
-1.9000000000748685
10
-13.855000000000059
20
-1.4500000000748674
10
-14.225000000000055
20
-1.4500000000748658
10
-14.225000000000055
20
-1.9000000000748645
10
-15.125000000000055
20
-1.9000000000748696
10
-15.12500000000006
20
-1.4500000000748665
10
-15.495000000000056
20
-1.450000000074867
10
-15.495000000000053
20
-1.9000000000748622
10
-16.395000000000056
20
-1.9000000000748685
10
-16.39500000000006
20
-1.4500000000748696
10
-16.765000000000054
20
-1.4500000000748658
10
-16.765000000000054
20
-1.9000000000748645
10
-17.665000000000056
20
-1.9000000000748707
10
-17.665000000000056
20
-1.4500000000748687
10
-18.035000000000057
20
-1.450000000074867
10
-18.035000000000053
20
-1.9000000000748658
10
-18.935000000000059
20
-1.9000000000748696
10
-18.935000000000059
20
-1.4500000000748665
10
-19.305000000000053
20
-1.4500000000748658
10
-19.305000000000053
20
-1.9000000000748645
10
-20.205000000000055
20
-1.9000000000748696
10
-20.205000000000059
20
-1.4500000000748696
10
-27.245000000000058
20
-1.4500000000749087
10
-27.244999999999962
20
-19.450000000074844
10
-20.205000000000055
20
-19.450000000074809
10
-20.205000000000055
20
-19.000000000074845
10
-19.30500000000006
20
-19.000000000074841
10
-19.305000000000057
20
-19.450000000074844
10
-18.935000000000059
20
-19.450000000074844
10
-18.935000000000059
20
-19.000000000074845
10
-18.035000000000057
20
-19.000000000074838
10
-18.035000000000057
20
-19.450000000074844
10
-17.665000000000056
20
-19.450000000074844
10
-17.665000000000063
20
-19.000000000074845
10
-16.765000000000057
20
-19.000000000074841
10
-16.765000000000057
20
-19.450000000074844
10
-16.39500000000006
20
-19.450000000074844
10
-16.39500000000006
20
-19.000000000074845
10
-15.495000000000058
20
-19.000000000074841
10
-15.495000000000056
20
-19.450000000074844
10
-15.125000000000057
20
-19.450000000074844
10
-15.125000000000062
20
-19.000000000074845
10
-14.225000000000058
20
-19.000000000074841
10
-14.225000000000056
20
-19.450000000074848
10
-13.855000000000059
20
-19.450000000074841
10
-13.855000000000059
20
-19.000000000074845
10
-12.955000000000057
20
-19.000000000074841
10
-12.955000000000055
20
-19.450000000074844
10
-12.585000000000058
20
-19.450000000074844
10
-12.585000000000059
20
-19.000000000074845
10
-11.685000000000059
20
-19.000000000074838
10
-11.685000000000056
20
-19.450000000074844
10
-11.315000000000055
20
-19.450000000074844
10
-11.31500000000006
20
-19.000000000074845
10
-10.415000000000056
20
-19.000000000074838
10
-10.415000000000054
20
-19.450000000074848
10
-10.045000000000057
20
-19.450000000074841
10
-10.045000000000062
20
-19.000000000074845
10
-9.1450000000000582
20
-19.000000000074841
10
-9.1450000000000546
20
-19.450000000074844
10
-8.775000000000059
20
-19.450000000074844
10
-8.775000000000059
20
-19.000000000074845
10
-7.8750000000000577
20
-19.000000000074841
10
-7.8750000000000551
20
-19.450000000074844
10
-7.5050000000000576
20
-19.450000000074841
10
-7.5050000000000594
20
-19.000000000074845
10
-6.6050000000000599
20
-19.000000000074841
10
-6.6050000000000564
20
-19.450000000074844
10
-6.2350000000000607
20
-19.450000000074844
10
-6.2350000000000616
20
-19.000000000074845
10
-5.3350000000000595
20
-19.000000000074841
10
-5.335000000000055
20
-19.450000000074844
10
-4.9650000000000594
20
-19.450000000074844
10
-4.9650000000000603
20
-19.000000000074845
10
-4.0650000000000608
20
-19.000000000074841
10
-4.0650000000000563
20
-19.450000000074848
10
-3.6950000000000593
20
-19.450000000074844
10
-3.6950000000000616
20
-19.000000000074845
10
-2.7950000000000585
20
-19.000000000074838
10
-2.7950000000000541
20
-19.450000000074848
10
-1.7450000000000609
20
-19.450000000074837
10
-1.745000000000076
20
-16.615000000074843
10
-2.1950000000000647
20
-16.615000000074851
0
LWPOLYLINE
5
150
100
AcDbEntity
8
0
100
AcDbPolyline
90
89
70
1
43
0.0
10
45.534999999999989
20
-16.640000000074888
42
0.41421356237309503
10
45.234999999999985
20
-16.340000000074888
10
42.785000000009994
20
-16.340000000074902
42
-0.41421356237309503
10
42.48500000000999
20
-16.040000000074901
10
42.48500000000999
20
-7.5400000000748868
42
-0.32362759600315366
10
42.690961596699317
20
-7.2551197117031254
10
44.220931357814393
20
-6.750079807827623
42
-0.079878216421926579
10
44.283623626689995
20
-6.7400000000748639
10
45.064999999999998
20
-6.7400000000748861
42
0.41421356237308204
10
45.264999999999986
20
-6.5400000000748904
10
45.264999999999993
20
-5.8500000000748997
42
-0.41421356237312978
10
45.414999999999992
20
-5.7000000000748994
10
45.484999999829995
20
-5.700000000074894
10
45.484999999829995
20
-4.6700000000748965
10
44.984999999999992
20
-4.6700000000748689
42
-0.35639339825220362
10
44.936010225035545
20
-4.63000009752104
10
43.503989795192496
20
-4.6299999984246911
42
-0.35639396818323227
10
43.454999999999998
20
-4.6700000000748707
10
43.325710678119989
20
-4.6700000000748743
42
-0.1989123672327926
10
43.290355339080662
20
-4.6553553391541955
10
42.819644660960691
20
-4.1846446610542083
42
-0.1989123675267698
10
42.805
20
-4.1492893219748677
10
42.804999999999993
20
-4.0900000000748804
10
37.134999999999991
20
-4.0900000000748795
10
37.134999999999991
20
-4.1845836544748671
10
37.279583654339994
20
-4.1845836544748671
10
37.741066017177978
20
-4.6460660172969028
42
-0.19891236737963941
10
37.784999999999997
20
-4.752132034474883
10
37.784999999999997
20
-5.8900000000748953
42
-0.41421356237309503
10
37.484999999999992
20
-6.190000000074896
10
36.374999672379992
20
-6.1900000000748792
42
-0.41421356237308693
10
36.17499967237999
20
-5.9900000000748754
10
36.174999672379997
20
-5.9200000140748799
10
35.474999672379994
20
-5.9200000140748799
10
35.474999672379994
20
-5.9400000000748676
10
35.274999672379991
20
-5.9400000000748676
10
35.274999672379998
20
-5.705786110074893
10
34.799213562379997
20
-5.2300000000748881
10
34.334999999999994
20
-5.2300000000748881
10
34.334999999999994
20
-5.0300000000748746
10
36.284999999999989
20
-5.0300000000748915
42
-0.41421356237310969
10
36.484999999999992
20
-5.2300000000748881
10
36.484999999999992
20
-5.7600000000748963
42
0.41421356237309503
10
36.634999999999991
20
-5.9100000000748967
10
37.234999999999992
20
-5.9100000000748665
42
0.41421356237310375
10
37.384999999999998
20
-5.7600000000748963
10
37.384999999999991
20
-5.1171067812748916
42
0.19891236737965862
10
37.238553390593268
20
-4.7635533906816168
10
36.763578643759992
20
-4.2885786438748852
42
0.19891236741640153
10
36.622157287519997
20
-4.2300000000748881
10
34.334999999999994
20
-4.2300000000748907
10
34.334999999999994
20
-4.0900000000748804
10
31.905000000001991
20
-4.0900000000748795
10
31.905000000001991
20
-4.1000000000748926
42
-0.41421356237312756
10
31.805000000001993
20
-4.2000000000748923
10
31.655000000001991
20
-4.2000000000748905
10
31.655000000001991
20
-4.8000000000748777
10
31.805000000001993
20
-4.8000000000748759
42
-0.41421356237312756
10
31.905000000001991
20
-4.9000000000748756
10
31.905000000001991
20
-4.9500000000748834
42
-0.41421356237312756
10
31.805000000001993
20
-5.050000000074883
10
31.755000000001989
20
-5.0500000000748813
10
31.755000000001989
20
-5.3500000000748926
10
32.255000000001992
20
-5.3500000000748917
42
-0.41421356237312429
10
32.355000000001993
20
-5.4500000000748905
10
32.355000000001993
20
-7.150000000074872
42
-0.41421356237312429
10
32.255000000001992
20
-7.2500000000748717
10
31.755000000001989
20
-7.2500000000748699
10
31.755000000001989
20
-8.9500000000748869
10
32.72201157472999
20
-8.9500000000748869
42
-0.34725864946839036
10
32.819289162562015
20
-9.0268252097720136
10
33.22190395357255
20
-10.716825209774271
42
-0.48449594350688591
10
33.124626365739985
20
-10.840000000074889
10
31.755000000001989
20
-10.84000000007487
10
31.755000000001989
20
-15.890000000074895
10
31.805000000001993
20
-15.890000000074879
42
-0.41421356237314055
10
31.905000000001991
20
-15.990000000074875
10
31.905000000001994
20
-16.040000000074901
42
-0.41421356237314055
10
31.805000000001993
20
-16.140000000074902
10
31.655000000001991
20
-16.140000000074881
10
31.655000000001991
20
-16.740000000074886
10
31.805000000001993
20
-16.74000000007489
42
-0.41421356237314055
10
31.905000000001991
20
-16.840000000074884
10
31.905000000001991
20
-16.850000000074896
10
39.184999999999995
20
-16.850000000074896
42
-0.41421356237312756
10
39.284999999999989
20
-16.750000000074895
10
41.684999999999981
20
-16.750000000074895
42
-0.41421356237310802
10
41.784999999999989
20
-16.850000000074896
10
45.534999999999997
20
-16.850000000074896
0
LWPOLYLINE
5
151
100
AcDbEntity
8
0
100
AcDbPolyline
90
25
70
1
43
0.0
10
34.534999999999989
20
-3.940000000074857
10
31.805000000001993
20
-3.9400000000748565
10
31.834289322226841
20
-3.940000000074857
10
31.875710678425992
20
-3.9400000000748654
10
31.905000000001991
20
-3.940000000074857
10
34.334999999999994
20
-3.9400000000748752
10
37.134999999999991
20
-3.9400000000748574
10
42.804999999999993
20
-3.9400000000748752
10
42.704999999999991
20
-3.940000000074857
10
39.667287565549998
20
-3.9400000000748565
10
39.601143782777108
20
-3.9400000000748747
10
39.534999999999989
20
-3.9400000000748747
10
37.534999999999989
20
-3.940000000074857
10
37.468856217227085
20
-3.9400000000748747
10
37.402712434449995
20
-3.9400000000748747
10
36.384999999999991
20
-3.940000000074857
10
36.284999999999997
20
-3.940000000074857
10
36.184999999999988
20
-3.940000000074857
10
35.884999999999991
20
-3.940000000074857
10
35.784999999999997
20
-3.940000000074857
10
35.684999999999995
20
-3.940000000074857
10
34.884999999999991
20
-3.940000000074857
10
34.784999999999997
20
-3.940000000074857
10
34.684999999999988
20
-3.940000000074857
10
34.634999999999991
20
-3.940000000074857
0
LWPOLYLINE
5
152
100
AcDbEntity
8
0
100
AcDbPolyline
90
2
70
1
43
0.0
10
39.084999999999994
20
-3.9400000000748747
10
39.184999999999988
20
-3.9400000000748747
0
LWPOLYLINE
5
153
100
AcDbEntity
8
0
100
AcDbPolyline
90
4
70
1
43
0.0
10
39.084999999999994
20
-3.9400000000748747
10
37.984999999999985
20
-3.940000000074857
10
37.884999999999998
20
-3.940000000074857
10
37.984999999999985
20
-3.940000000074857
0
LWPOLYLINE
5
154
100
AcDbEntity
8
0
100
AcDbPolyline
90
2
70
1
43
0.0
10
41.684999999999988
20
-3.9400000000748747
10
41.784999999999989
20
-3.9400000000748747
0
LWPOLYLINE
5
155
100
AcDbEntity
8
0
100
AcDbPolyline
90
4
70
1
43
0.0
10
41.684999999999988
20
-3.9400000000748747
10
40.284999999999997
20
-3.940000000074857
10
40.184999999999995
20
-3.940000000074857
10
40.284999999999997
20
-3.940000000074857
0
LWPOLYLINE
5
156
100
AcDbEntity
8
0
100
AcDbPolyline
90
27
70
1
43
0.0
10
31.605000000001986
20
-8.9500000000748692
10
31.605000000001986
20
-7.2500000000748699
10
31.605000000001986
20
-7.1500000000748543
10
31.605000000001986
20
-5.4500000000748727
10
31.605000000001986
20
-5.3500000000748731
10
31.605000000001986
20
-5.0500000000748813
10
31.605000000001986
20
-5.3500000000748731
10
31.605000000001986
20
-7.1500000000748543
10
31.605000000001986
20
-7.2500000000748699
10
31.605000000001986
20
-7.3500000000748855
10
31.605000000001986
20
-9.5500000000748742
10
31.605000000001986
20
-9.6500000000748738
10
31.605000000001986
20
-9.7500000000748521
10
31.605000000001986
20
-12.390000000074863
10
31.605000000001986
20
-12.490000000074863
10
31.605000000001986
20
-12.590000000074859
10
31.605000000001986
20
-12.940000000074861
10
31.605000000001986
20
-13.04000000007486
10
31.605000000001986
20
-13.140000000074874
10
31.605000000001986
20
-13.540000000074883
10
31.605000000001986
20
-13.640000000074883
10
31.605000000001986
20
-13.740000000074861
10
31.605000000001986
20
-15.590000000074866
10
31.605000000001986
20
-15.890000000074885
10
31.605000000001986
20
-10.84000000007487
10
31.605000000001986
20
-10.740000000074872
10
31.605000000001986
20
-9.050000000074867
0
LWPOLYLINE
5
157
100
AcDbEntity
8
0
100
AcDbPolyline
90
4
70
1
43
0.0
10
31.605000000001986
20
-7.6500000000748614
10
31.605000000001986
20
-8.5500000000748599
10
31.605000000001986
20
-8.6500000000748596
10
31.605000000001986
20
-8.5500000000748599
0
LWPOLYLINE
5
158
100
AcDbEntity
8
0
100
AcDbPolyline
90
2
70
1
43
0.0
10
31.605000000001986
20
-7.6500000000748614
10
31.605000000001986
20
-7.5500000000748795
0
LWPOLYLINE
5
159
100
AcDbEntity
8
0
100
AcDbPolyline
90
2
70
1
43
0.0
10
31.605000000001986
20
-14.410000000074845
10
31.605000000001986
20
-14.310000000074883
0
LWPOLYLINE
5
160
100
AcDbEntity
8
0
100
AcDbPolyline
90
4
70
1
43
0.0
10
31.605000000001986
20
-14.410000000074845
10
31.605000000001986
20
-15.410000000074859
10
31.605000000001986
20
-15.510000000074859
10
31.605000000001986
20
-15.410000000074859
0
LWPOLYLINE
5
161
100
AcDbEntity
8
0
100
AcDbPolyline
90
44
70
1
43
0.0
10
39.184999999999988
20
-17.000000000074866
10
31.905000000001991
20
-17.000000000074866
10
31.875710678224149
20
-17.000000000074849
10
31.83428932219099
20
-17.000000000074856
10
31.805000000001993
20
-17.000000000074849
10
34.534999999999989
20
-17.000000000074849
10
34.634999999999991
20
-17.000000000074849
10
34.684999999999995
20
-17.000000000074849
10
34.784999999999982
20
-17.000000000074849
10
34.884999999999991
20
-17.000000000074849
10
35.684999999999995
20
-17.000000000074849
10
35.784999999999989
20
-17.000000000074849
10
35.884999999999991
20
-17.000000000074849
10
35.984999999999992
20
-17.000000000074849
10
35.884999999999991
20
-17.000000000074849
10
34.884999999999991
20
-17.000000000074849
10
34.784999999999982
20
-17.000000000074849
10
34.884999999999991
20
-17.000000000074849
10
35.884999999999991
20
-17.000000000074849
10
36.334999999999987
20
-17.000000000074849
10
36.434999999999988
20
-17.000000000074849
10
36.534999999999997
20
-17.000000000074849
10
37.402712434449995
20
-17.000000000074849
10
37.468856217228499
20
-17.000000000074866
10
37.534999999999989
20
-17.000000000074866
10
39.534999999999989
20
-17.000000000074849
10
39.601143782778514
20
-17.000000000074866
10
39.667287565549991
20
-17.000000000074866
10
42.185501256289996
20
-17.000000000074849
10
42.28550125628999
20
-17.000000000074849
10
42.385501256289984
20
-17.000000000074849
10
42.434999999999988
20
-17.000000000074849
10
42.534999999999989
20
-17.000000000074849
10
44.934999999999988
20
-17.000000000074849
10
45.434999999999988
20
-17.000000000074849
10
45.634999999999984
20
-17.000000000074866
10
45.584999999990671
20
-17.000000000074849
10
45.534999999999989
20
-17.000000000074849
10
41.784999999999989
20
-17.000000000074866
10
41.684999999999988
20
-17.000000000074866
10
40.284999999999997
20
-17.000000000074849
10
40.185501256289335
20
-17.000000000074866
10
40.086002512579988
20
-17.000000000074849
10
39.284999999999989
20
-17.000000000074866
0
LWPOLYLINE
5
162
100
AcDbEntity
8
0
100
AcDbPolyline
90
10
70
1
43
0.0
10
37.984999999999985
20
-17.000000000074849
10
38.584999999999994
20
-17.000000000074849
10
38.684999999999988
20
-17.000000000074849
10
37.684999999999995
20
-17.000000000074849
10
37.584999999999994
20
-17.000000000074849
10
37.684999999999995
20
-17.000000000074849
10
38.684999999999988
20
-17.000000000074849
10
38.784999999999989
20
-17.000000000074849
10
38.684999999999988
20
-17.000000000074849
10
38.584999999999994
20
-17.000000000074849
0
LWPOLYLINE
5
163
100
AcDbEntity
8
0
100
AcDbPolyline
90
2
70
1
43
0.0
10
37.984999999999985
20
-17.000000000074849
10
37.884999999999991
20
-17.000000000074866
0
LWPOLYLINE
5
164
100
AcDbEntity
8
0
100
AcDbPolyline
90
4
70
1
43
0.0
10
34.384999999999991
20
-17.000000000074866
10
34.084999999999994
20
-17.000000000074866
10
33.984999999999992
20
-17.000000000074849
10
34.084999999999994
20
-17.000000000074866
0
LWPOLYLINE
5
165
100
AcDbEntity
8
0
100
AcDbPolyline
90
2
70
1
43
0.0
10
34.484999999999992
20
-17.000000000074849
10
34.384999999999991
20
-17.000000000074866
0
LWPOLYLINE
5
166
100
AcDbEntity
8
0
100
AcDbPolyline
90
6
70
1
43
0.0
10
43.684999999999988
20
-17.000000000074849
10
43.584999999999994
20
-17.000000000074866
10
42.984999999999985
20
-17.000000000074849
10
42.884999999999991
20
-17.000000000074866
10
42.984999999999985
20
-17.000000000074849
10
43.584999999999994
20
-17.000000000074866
0
LWPOLYLINE
5
167
100
AcDbEntity
8
0
100
AcDbPolyline
90
5
70
1
43
0.0
10
45.634999999999991
20
-4.6700000000748787
10
45.634999999999991
20
-5.700000000074894
10
45.634999999999991
20
-5.8000000000748742
10
45.634999999999991
20
-6.420000000074868
10
45.634999999999991
20
-6.5200000000748677
0
ENDSEC
0
SECTION
2
OBJECTS
0
DICTIONARY
5
C
100
AcDbDictionary
3
ACAD_GROUP
350
D
3
ACAD_MLINESTYLE
350
17
0
DICTIONARY
5
D
100
AcDbDictionary
0
DICTIONARY
5
1A
330
C
100
AcDbDictionary
0
DICTIONARY
5
17
100
AcDbDictionary
0
ENDSEC
0
EOF
